Make your own free website on Tripod.com
I Don't Know Anything
Transcribed by Kelly Kristek

This tab sounds pretty darn close I heard it on the radio
and just started playing along sounds good to me..


Standard tuning EADGBe

 Verse
  I dont know.....
e:------------------|
B:------------------|
G:------------------|
D:-2--x--x--2--x--2-|
A:-2--x--x--0--x--0-|
E:-0--x--x--0--x--0-|


Chorus
  Why we have to live ...
e:------------------------------------------------------------|
B:------------------------------------------------------------|
G:------------------------------------------------------------|
D:-2-2-2-2-2-2-2--4/5--2--------8-8-8-8-8-8-8-8-7-7-7-7-7-7-7-|
A:-2-2-2-2-2-2-2--4/5--2--------8-8-8-8-8-8-8-8-7-7-7-7-7-7-7-|
E:-0-0-0-0-0-0-0--2/3--0--------6-6-6-6-6-6-6-6-5-5-5-5-5-5-5-|