Make your own free website on Tripod.com
I'm Above

From: Justin Mackovyak, jmm3@twd.net

-Fairly easy, again I left the timing for you.

Intro
g------------------------------------------------
d---------------------0--------------------------
a---------------0h2------------------------------
e---0--0--0--0-----------------------------------


Verses
g-----------------------------------------------------------------------
d-----------0-0--0----------------------------------------00------------
a--------------------0-0-0-0-0--------------0-0-0-0-0-0-0---------------
e---0-0--0---------3-----------0-0--0-3-3-3-----------------------------

g-----------------------------------------------------------------------
d------------------------------00--------0-0--0-------------------------
a----------------0-0-0-0-0-0-0------------------0-0-0-0-0-0-0-----------
e--0-0--0-3-3--3------------------0-0--0--------------------------------


PRECHORUS
-again, timing my friend

g----------------------------------------------
d-0h2-2-2-2----------0h2-2-2-2------0----------
a-------------0-0--------------2-2-2-----------
e-----------3-----3----------------------------

CHORUS
-I....M A.....BOVE, (In case you were confused.)

g------------------------------------------------------------------
d------------------------------------------0120--------------------
a-3-3-3-3-2-2-2------------3-3-3-3-2-2-2-------210--3-3-3-3-2-2-2--
e---------------0-0-0-0-0----------------0------------------------0

g----------------------------
d----2-----2-----------------
a-0h2-2-0h2-0---3----2-------
e------0---------------------


SONG PATTERN

INTRO, VERSE, VERSE, PRECHORUS, CHORUS, SOLO(PLAY AS VERSE), VERSE, 
PRECHORUS, CHORUS, CHORUS, FADE