Make your own free website on Tripod.com
Wake Up by Mad Season Wake Up
by Mad Season

Transcribed by Jani Mattinen (sebastion@ix.netcom.com)

Standard tuning

  e--0-----3-----2-----0--
  B--1----(3)----3-----1--
  G--2-----0-----2-----2--
  D--2-----0-----0-----0--
  A--0-----2-----x-----3--
  E--x-----3-----x-----x--

     Am    G     D     C

The base line goes something like:


         Am                      Am
  A:-----------------------|-----------------------|
  E:--0--5-----5-----------|--0--5-----5-----0--5--|

         G                       D     C
  A:--------------------0--|--3--5-----3-----------|
  E:--0--3-----3-----------|-----------------------|

         Am                      Am
  A:-----------------------|-----------------------|
  E:--0--5-----5-----------|--0--5-----5-----0--5--|

         G                       C     D

  A:--------------------0--|--3--5-----3----/7-----|
  E:--0--3-----3-----------|-----------------------|

I think... :)

Cheers, SmegHead/Jani